Jump to content
aberdeen-music

Some BA Tabs to start us off! ...


Doc Ascension
 Share

Recommended Posts

Ok... Here's the riff to The Last Day to stay us off...

                  
Guitar 1
e||--------------------------|-------------------------|
B||--------------------------|-------------------------|
G||--------------------------|-------------------------|
D||--------2-----3--------2--|-----3--------2----------|
A||--0--0-----0-----0--0-----|--0-----0--0-----0-------|
E||--------------------------|--------------------3----|

e||--------------------------|-------------------------|
B||--------------------------|-------------------------|
G||--------------------------|----5--------7-----5-----|
D||--------2-----3-------/5--|-------5--5-----5-----5--|
A||--0--0-----0-----0--0-----|-------------------------|
E||--------------------------|-------------------------|

Harmony
E||--------------------------|-------------------------|
B||--------------------------|-------------------------|
G||--------9-----10-------9--|-----10-------9-----7----|
D||--7--7-----7-----7--7-----|--7-----7--7-----7-------|
A||--------------------------|-------------------------|
E||--------------------------|-------------------------|

e||--------------------------|-------------------------|
B||--------------------------|---13-------15----13-----|
G||--------9-----10------/12-|------12-12----12----12--|
D||--7--7-----7-----7--7-----|-------------------------|
A||--------------------------|-------------------------|
E||--------------------------|-------------------------|

For the verse, chug on [ A .. F .. A .. D .. G ] x2

Bridge [ F .. D .. G .. F .. D .. A .. F .. D .. G .. F ..... ]

Chorus [ A .. C .. G .. F .. C .. D ] X 4 with the following melody...


Chorus
E||---------------------------|--------------------------|
B||---------------------------|--------------------------|
G||-----------------7---------|--------------------------|
D||--7----7--9--10-----10--9--|--10----9--7--9----7------|
A||---------------------------|----------------------10--|
E||---------------------------|--------------------------|

e||---------------------------|-----------------------------|
B||---------------------------|-----------------------------|
G||-----------------7---------|--9--7------10--9--7---------|
D||--7----7--9--10-----10--9--|--------10------------10--9--|
A||---------------------------|-----------------------------|
E||---------------------------|-----------------------------|

Link to comment
Share on other sites

Hot of the presses - Broken Alive intro riff!


E||--------------------------|-------------------------|
B||--------------------------|-------------------------|
G||--------------------------|-------------------------|
D||--------------------------|-------------------------|
A||--------5-----3--------6--|-----5-----3----------5--|
E||--3--3-----3-----3--3-----|--3-----3-------6--5-----|

--------------------------|-----------------------|--------------------------|
--------------------------|-----------------------|--------------------------|
--------------------------|------------------A.H--|--------------------------|
--------------------------|------------------3----|--------------------------|
--------5-----3--------6--|-----5-----3-----------|--------5-----3--------6--|
--3--3-----3-----3--3-----|--3-----3--1-----------|--3--3-----3-----3--3-----|

-------------------------|-----------------------------||
-------------------------|-----------------------------||
-------------------------|-----------------------------||
-------------------------|----------8------------10----||
-----5-----3----------5--|--6-6-6-6-6----8-8-8-8-8-----||
--3-----3-------6--5-----|-----------------------------||

the verse is pretty similar also...

Link to comment
Share on other sites

actually having just listened to it, those riffs are very quiet, so being bored i thought i'd share them, these are 2 intro riffs that kinda hide in the chords after the intro and under the vocals, timings a bit tricky on the second one but with a bit of practice you'll get it no bother!

intro riff 2 under verse chords (x2)
e[--------------------------------------------------------------]
B[--------------------------------------------------------------]
G[--------------------------------------------------------------]
D[-----2---3-----2---3-----1---2-----2---3----2---3-----5---3---]
A[-0-0---0---0-0---0---0-0---0---0-0---0---0-0--0---0-0---0-----]
E[--------------------------------------------------------------]

verse riff, under vocals (x2)
e[-------------------------------------------------------------------------]
B[-------------------------------------------------------------------------]
G[------------------------------------------------------/5-5-----7---5-----]
D[----------2h3p2-------5h6p5-------3h5h3-----2---3---2-/5---5-5---5---5---]
A[-0--0-0-0-------0-0-0-------0-0-0----------------------------------------]
E[----------------------------------------1-1---1---1----------------------]

e[-------------------------------------------------------------------------]
B[-------------------------------------------------------------------------]
G[-------------------------------------------------------------------------]
D[----------2h3p2-------5h6p5-------3h5h3-----0---2---3-/5-5-----7---5-----]
A[-0--0-0-0-------0-0-0-------0-0-0---------------------/5---5-5---5---5---]
E[----------------------------------------1-1---1---1----------------------]

(dont expect any complete songs from me, im just here to add bits n pieces to help ;) )

Link to comment
Share on other sites

no problem chaps... glad they are useful!!

here's the first half of Chasing Ghosts (missing the clean intro and upto the Clean middle for now...) all three guitars tabbed (not perfectly...very lazy today!) but the harmony is correct... :)

I've put them all on Yahoo as i've got no where else to put them and i don't think they would would fit on the board very well! Maybe Rass could stick them on AtomWeb? I've putthe midi up there so you can listen and the guitar pro file for you Guitar Pro'ers!!

http://uk.f2.pg.briefcase.yahoo.com/bc/docawoo/lst?.dir=/My+Documents

if it doesn't work I could email anyone who wants a copy!

Thanks

Link to comment
Share on other sites

OK!!! Time to play the tapping solo from Fallen!! I've also put the Harmony that Dan plays live at the end, not sure if it's 100% right as i've only heard it once but it should be if my theory is anything to go by (which it isn't!!! hehe) enjoy...


Guitar 1
E||--14--7--10--14--7--10--14--7--10--14--7--10--|
B||----------------------------------------------|
G||----------------------------------------------|
D||----------------------------------------------|
A||----------------------------------------------|
E||----------------------------------------------|

--14--7--10--14--7--10--14--7--10--14--7--10--|
----------------------------------------------|
----------------------------------------------|
----------------------------------------------|
----------------------------------------------|
----------------------------------------------|

--15--7--10--15--7--10--15--7--10--17--7--10--|
----------------------------------------------|
----------------------------------------------|
----------------------------------------------|
----------------------------------------------|
----------------------------------------------|

--17--7--10--17--7--10--15--7--10--17--7--10--|
----------------------------------------------|
----------------------------------------------|
----------------------------------------------|
----------------------------------------------|
----------------------------------------------|

--12--5--8--12--5--8--12--5--8--12--5--8--|
------------------------------------------|
------------------------------------------|
------------------------------------------|
------------------------------------------|
------------------------------------------|

--12--5--8--12--5--8--12--5--8--12--5--8--|
------------------------------------------|
------------------------------------------|
------------------------------------------|
------------------------------------------|
------------------------------------------|

--13--5--8--13--5--8--13--5--8--15--5--8--|
------------------------------------------|
------------------------------------------|
------------------------------------------|
------------------------------------------|
------------------------------------------|

--15--5--8--15--5--8--13--5--8--15--5--8--|----||
------------------------------------------|----||
------------------------------------------|----||
------------------------------------------|----||
------------------------------------------|----||
------------------------------------------|----||

Link to comment
Share on other sites

and Dan's harmony tapping...


Guitar 2
E||--17--10--14--17--10--14--17--10--14--17--10--14--|
B||--------------------------------------------------|
G||--------------------------------------------------|
D||--------------------------------------------------|
A||--------------------------------------------------|
E||--------------------------------------------------|

--17--10--14--17--10--14--17--10--14--17--10--14--|
--------------------------------------------------|
--------------------------------------------------|
--------------------------------------------------|
--------------------------------------------------|
--------------------------------------------------|

--19--10--14--19--10--14--19--10--14--21--10--14--|
--------------------------------------------------|
--------------------------------------------------|
--------------------------------------------------|
--------------------------------------------------|
--------------------------------------------------|

--21--10--14--21--10--14--19--10--14--21--10--14--|
--------------------------------------------------|
--------------------------------------------------|
--------------------------------------------------|
--------------------------------------------------|
--------------------------------------------------|

--15--8--12--15--8--12--15--8--12--15--8--12--|
----------------------------------------------|
----------------------------------------------|
----------------------------------------------|
----------------------------------------------|
----------------------------------------------|

--15--8--12--15--8--12--15--8--12--15--8--12--|
----------------------------------------------|
----------------------------------------------|
----------------------------------------------|
----------------------------------------------|
----------------------------------------------|

--17--8--12--17--8--12--17--8--12--19--8--12--|
----------------------------------------------|
----------------------------------------------|
----------------------------------------------|
----------------------------------------------|
----------------------------------------------|

--19--8--12--19--8--12--17--8--12--19--8--12--|----||
----------------------------------------------|----||
----------------------------------------------|----||
----------------------------------------------|----||
----------------------------------------------|----||
----------------------------------------------|----||

Link to comment
Share on other sites

Chasing Ghosts - Guitar 1

AH HA The Code stays in that little scroll box does it?

well then enjoy the 3 guitars from Chasing Ghosts thus far!!!! .....


Guitar 1
E||------------------------|-----------------------|-----------------------|
B||------------------------|-----------------------|-----------------------|
G||*-----------------------|-----------------------|-----------------------|
D||*--2-------2-------2----|-----2-------2----2----|--5-------5-------7----|
A||---0----0--0----0--0----|--0--0----0--0----0----|--3----3--3----3--5----|
E||------------------------|-----------------------|-----------------------|
2x
-------------------------||--------------------|---------------------|
-------------------------||--------------------|---------------------|
------------------------*||--------------------|---------------------|
-----7-------7--7--7----*||--5--------------7--|----------12/------x-|
--5--5----5--5--5--5-----||--3--------------5--|----------12/------x-|
-------------------------||--------------------|---------------------|

|--------------------------|--------------------------|---------------------|
|--------------------------|--------------------------|---------------------|
|*-------------------------|--------------------------|---------------------|
|*--2----------------------|--------------------------|--5------7-----------|
|---0----0--0--0--0--0--0--|--0--0--0--0--0--0--0--0--|--3------5------5----|
|--------------------------|--------------------------|----------------3----|

---------------------------||-------------------------|
---------------------------||-------------------------|
--------------------------*||-------------------------|
--------------------------*||--2----------------------|
---------------------------||--0----0--0--0--0--0--0--|
--3--3--3--3--3--3--3--3---||-------------------------|

--------------------------|---------------------|-------------------|
--------------------------|---------------------|-------------------|
--------------------------|---------------------|-------------------|
--------------------------|--5------7-----------|-------------------|
--0--0--0--0--0--0--0--0--|--3------5------5----|----------5--------|
--------------------------|----------------3----|----------3--------|

-------------------|------------------|-------------------|------------------|
-------------------|------------------|-------------------|------------------|
-------------------|------------------|-------------------|------------------|
-------------------|------------------|-------------------|------------------|
--3----------------|------------------|--5----------------|------------------|
--1----------------|------------------|--3----------------|------------------|

--------------------------|-------------------------|-------------------------|
--------------------------|-------------------------|-------------------------|
--------------------------|-------------------------|-------------------------|
--------2-----3--2--0-----|-------2-----3--2--0-----|-------2-----3--2--0-----|
--0--0-----0-----------0--|----0-----0-----------0--|----0-----0-----------0--|
--------------------------|-------------------------|-------------------------|

------------------------|-------------------|------------------|
------------------------|-------------------|------------------|
------------------------|-------------------|------------------|
-------2-----3--2--0----|-------------------|------------------|
----0-----0-------------|--3----------------|------------------|
------------------------|--1----------------|------------------|

-------------------|------------------|-----------------------|
-------------------|------------------|-----------------------|
-------------------|------------------|-----------------------|
-------------------|------------------|--------------2--------|
--5----------------|------------------|--0--0--0--0--0--------|
--3----------------|------------------|-----------------------|

-----------------------|--------------------------|--------------------------|
-----------------------|--------------------------|--------------------------|
-----------------------|--------------------------|--------------------------|
-----------------------|--------------------------|--------------------------|
--------------5--------|--3--------3--------3-----|-----3--------3-----3-----|
--3--3--3--3--3--------|--1--1--1--1--1--1--1--1--|--1--1--1--1--1--1--1--1--|

--------------------------|-------------------||--------------------------|
--------------------------|-------------------||--------------------------|
--------------------------|-------------------||*-------------------------|
--------------------------|-------------------||*--2----2-----------------|
--5--------5--------5-----|--5----------------||---0----0--0--0--0--0--0--|
--3--3--3--3--3--3--3--3--|--3----------------||--------------------------|

--------------------------|-------------------------|--------------------------|
--------------------------|-------------------------|--------------------------|
--------------------------|-------------------------|--------------------------|
--------------------------|-------------------------|--------------------------|
--0--0--0--0--0--0--0--0--|--3----3-----------------|--------------------------|
--------------------------|--1----1--1--1--1--1--1--|--1--1--1--1--1--1--1--1--|

-------------------------|--------------------------|-------------------------|
-------------------------|--------------------------|-------------------------|
-------------------------|--------------------------|-------------------------|
--5----5-----------------|--------------------------|-------------------------|
--3----3--3--3--3--3--3--|--3--3--3--3--3--3--3--3--|--5----5-----------------|
-------------------------|--------------------------|--3----3--3--3--3--3--3--|

---------------------------||-------------------|-------------------|
---------------------------||-------------------|-------------------|
--------------------------*||-------------------|-------------------|
--------------------------*||--2----------------|-------------------|
-----5-----------6---------||--0----------------|----------------3--|
--3--3--3--3--3--4--4--4---||-------------------|----------------1--|

------------------|-------------------|------------------|-------------------|
------------------|-------------------|------------------|-------------------|
------------------|-------------------|------------------|-------------------|
------------------|----------------5--|------------------|-------------------|
------------------|----------------3--|------------------|----------------5--|
------------------|-------------------|------------------|----------------3--|

------------------|--------------------|-------------------|-------------------|
------------------|--------------------|-------------------|-------------------|
------------------|--------------------|-------------------|-------------------|
------------------|--------------------|--2----------------|-------------------|
------------------|--5--------6--------|--0----------------|----------------3--|
------------------|--3--------4--------|-------------------|----------------1--|

------------------|-------------------|------------------|-------------------|
------------------|-------------------|------------------|-------------------|
------------------|-------------------|------------------|-------------------|
------------------|----------------5--|------------------|-------------------|
------------------|----------------3--|------------------|----------------5--|
------------------|-------------------|------------------|----------------3--|

------------------|----------------------||-----------------------------|
------------------|--------------10--12--||---13----12--10------10------|
------------------|----------------------||*----------------12----------|
------------------|----------------------||*----------------------------|
------------------|----------------------||-----------------------------|
------------------|----------------------||-----------------------------|

----------------------|----------------------------|-----------------------|
--------------10--12--|--13----12--10--12----------|-----------------------|
----------------------|--------------------12------|------------12--10--9--|
----------------------|----------------------------|-----------------------|
----------------------|----------------------------|-----------------------|
----------------------|----------------------------|-----------------------|

----------------------------|----------------------|-----------------------|
--------13--13--13--13------|------------12--13----|-----------------------|
--10------------------------|----------------------|--12--------7-9-7------|
----------------------------|----------------------|-----------------------|
----------------------------|----------------------|-----------------------|
----------------------------|----------------------|-----------------------|

-----------------------------||----------------------------|
--------------------10--12---||--13----12--10------10------|
--4-5-4---------------------*||----------------12----------|
-------------5-7-5----------*||----------------------------|
-----------------------------||----------------------------|
-----------------------------||----------------------------|

----------------------|----------------------------|-----------------------|
--------------10--12--|--13----12--10--12----------|-----------------------|
----------------------|--------------------12------|------------12--10--9--|
----------------------|----------------------------|-----------------------|
----------------------|----------------------------|-----------------------|
----------------------|----------------------------|-----------------------|

----------------------------|----------------------|-----------------------|
--------13--13--13--13------|------------12--13----|-----------------------|
--10------------------------|----------------------|--12--------7-9-7------|
----------------------------|----------------------|-----------------------|
----------------------------|----------------------|-----------------------|
----------------------------|----------------------|-----------------------|

----------------------------|----------------------------|
--------------------10--12--|--13----12--10------10------|
--4-5-4---------------------|----------------12----------|
-------------5-7-5----------|----------------------------|
----------------------------|----------------------------|
----------------------------|----------------------------|

----------------------|----------------------------|-----------------------|
--------------10--12--|--13----12--10--12----------|-----------------------|
----------------------|--------------------12------|------------12--10--9--|
----------------------|----------------------------|-----------------------|
----------------------|----------------------------|-----------------------|
----------------------|----------------------------|-----------------------|

----------------------------|----------------------|--------------------|
--------13--13--13--13------|------------12--13----|--------------------|
--10------------------------|----------------------|--12----------------|
----------------------------|----------------------|--------------------|
----------------------------|----------------------|--------------------|
----------------------------|----------------------|--------------------|

----17--------------||-------------------------|-----------------------|
--------------------||-------------------------|-----------------------|
--------------------||*------------------------|-----------------------|
--------------------||*-----------9------------|-----9------------8----|
--------------------||---7--7--7--7------7--7--|--7--7------7--7--7----|
--------------------||-------------------------|-----------------------|

------------------------|-------------------------||
------------------------|-------------------------||
------------------------|------------------------*||
-----------9------------|-----9------------10----*||
--7--7--7--7------7--7--|--7--7------7--7--7------||
------------------------|-------------------------||
3x
-------------------------------|-------------------------------||
-------------------------------|-------------------------------||
*------------------------------|------------------------------*||
*-----------9--------7----7----|-----------4--------5----5----*||
---7--7--7--7--7--7--5----5----|--2--2--2--2--2--2--3----------||
-------------------------------|-------------------------------||

-------------------|------------------|------------------|------------------|
-------------------|------------------|------------------|------------------|
-------------------|------------------|------------------|------------------|
-------------------|------------------|------------------|------------------|
--2----------------|------------------|------------------|------------------|
--0----------------|------------------|------------------|------------------|

-------------------|------------------|------------------|------------------|
-------------------|------------------|------------------|------------------|
-------------------|------------------|------------------|------------------|
-------------------|------------------|------------------|------------------|
--2----------------|------------------|------------------|------------------|
--0----------------|------------------|------------------|------------------|

------||
------||
------||
------||
------||
------||

Link to comment
Share on other sites

Chasing Ghosts - Guitar 2


Guitar 2
E||------------------------|-----------------------|-----------------------|
B||------------------------|-----------------------|-----------------------|
G||*-----------------------|-----------------------|-----------------------|
D||*--2-------2-------2----|-----2-------2----2----|--5-------5-------7----|
A||---0----0--0----0--0----|--0--0----0--0----0----|--3----3--3----3--5----|
E||------------------------|-----------------------|-----------------------|
2x
-------------------------||--------------------|---------------------|
-------------------------||--------------------|---------------------|
------------------------*||--------------------|---------------------|
-----7-------7--7--7----*||--5--------------7--|----------12/------x-|
--5--5----5--5--5--5-----||--3--------------5--|----------12/------x-|
-------------------------||--------------------|---------------------|

|--------------------------|--------------------------|---------------------|
|--------------------------|--------------------------|---------------------|
|*-------------------------|--------------------------|---------------------|
|*--2----------------------|--------------------------|--5------7-----------|
|---0----0--0--0--0--0--0--|--0--0--0--0--0--0--0--0--|--3------5------5----|
|--------------------------|--------------------------|----------------3----|

---------------------------||-------------------------|
---------------------------||-------------------------|
--------------------------*||-------------------------|
--------------------------*||--2----------------------|
---------------------------||--0----0--0--0--0--0--0--|
--3--3--3--3--3--3--3--3---||-------------------------|

--------------------------|---------------------|-------------------|
--------------------------|---------------------|-------------------|
--------------------------|---------------------|-------------------|
--------------------------|--5------7-----------|-------------------|
--0--0--0--0--0--0--0--0--|--3------5------5----|----------5--------|
--------------------------|----------------3----|----------3--------|

-------------------|------------------|-------------------|------------------|
-------------------|------------------|-------------------|------------------|
-------------------|------------------|-------------------|------------------|
-------------------|------------------|-------------------|------------------|
--3----------------|------------------|--5----------------|------------------|
--1----------------|------------------|--3----------------|------------------|

--------------------------|--------------------------|
--------------------------|--------------------------|
--------------------------|--------------------------|
--------------------------|--------------------------|
--0--0--0--0--0--0--0--0--|--0--0--0--0--0--0--0--0--|
--------------------------|--------------------------|

--------------------------|-------------------------|-------------------|
--------------------------|-------------------------|-------------------|
--------------------------|-------------------------|-------------------|
--------------------------|-------------------------|-------------------|
--0--0--0--0--0--0--0--0--|--0--0--0--0--0--0--0----|--3----------------|
--------------------------|-------------------------|--1----------------|

------------------|-------------------|------------------|
------------------|-------------------|------------------|
------------------|-------------------|------------------|
------------------|-------------------|------------------|
------------------|--5----------------|------------------|
------------------|--3----------------|------------------|

-----------------------|-----------------------|--------------------------|
-----------------------|-----------------------|--------------------------|
-----------------------|-----------------------|--------------------------|
--------------2--------|-----------------------|--------------------------|
--0--0--0--0--0--------|--------------5--------|--3--------3--------3-----|
-----------------------|--3--3--3--3--3--------|--1--1--1--1--1--1--1--1--|

--------------------------|--------------------------|-------------------|
--------------------------|--------------------------|-------------------|
--------------------------|--------------------------|-------------------|
--------------------------|--------------------------|-------------------|
-----3--------3-----3-----|--5--------5--------5-----|--5----------------|
--1--1--1--1--1--1--1--1--|--3--3--3--3--3--3--3--3--|--3----------------|

|--------------------------|--------------------------|
|--------------------------|--------------------------|
|*-------------------------|--------------------------|
|*--2----2-----------------|--------------------------|
|---0----0--0--0--0--0--0--|--0--0--0--0--0--0--0--0--|
|--------------------------|--------------------------|

-------------------------|--------------------------|-------------------------|
-------------------------|--------------------------|-------------------------|
-------------------------|--------------------------|-------------------------|
-------------------------|--------------------------|--5----5-----------------|
--3----3-----------------|--------------------------|--3----3--3--3--3--3--3--|
--1----1--1--1--1--1--1--|--1--1--1--1--1--1--1--1--|-------------------------|

--------------------------|-------------------------|
--------------------------|-------------------------|
--------------------------|-------------------------|
--------------------------|-------------------------|
--3--3--3--3--3--3--3--3--|--5----5-----------------|
--------------------------|--3----3--3--3--3--3--3--|

---------------------------||-------------------|-------------------|
---------------------------||-------------------|-------------------|
--------------------------*||-------------------|-------------------|
--------------------------*||--2----------------|-------------------|
-----5-----------6---------||--0----------------|----------------3--|
--3--3--3--3--3--4--4--4---||-------------------|----------------1--|

------------------|-------------------|------------------|-------------------|
------------------|-------------------|------------------|-------------------|
------------------|-------------------|------------------|-------------------|
------------------|----------------5--|------------------|-------------------|
------------------|----------------3--|------------------|----------------5--|
------------------|-------------------|------------------|----------------3--|

------------------|--------------------|-------------------|-------------------|
------------------|--------------------|-------------------|-------------------|
------------------|--------------------|-------------------|-------------------|
------------------|--------------------|--2----------------|-------------------|
------------------|--5--------6--------|--0----------------|----------------3--|
------------------|--3--------4--------|-------------------|----------------1--|

------------------|-------------------|------------------|-------------------|
------------------|-------------------|------------------|-------------------|
------------------|-------------------|------------------|-------------------|
------------------|----------------5--|------------------|-------------------|
------------------|----------------3--|------------------|----------------5--|
------------------|-------------------|------------------|----------------3--|

------------------|------------------||--------------------------|
------------------|------------------||--------------------------|
------------------|------------------||*-------------------------|
------------------|------------------||*--2----2-----------------|
------------------|------------------||---0----0--0--0--0--0--0--|
------------------|------------------||--------------------------|

--------------------------|-------------------------|--------------------------|
--------------------------|-------------------------|--------------------------|
--------------------------|-------------------------|--------------------------|
--------------------------|--5----5-----------------|--------------------------|
--0--0--0--0--0--0--0--0--|--3----3--3--3--3--3--3--|--3--3--3--3--3--3--3--3--|
--------------------------|-------------------------|--------------------------|

-------------------------|--------------------------|-------------------------|
-------------------------|--------------------------|-------------------------|
-------------------------|--------------------------|-------------------------|
-------------------------|--------------------------|-------------------------|
--3----3-----------------|--------------------------|--5----5-----------------|
--1----1--1--1--1--1--1--|--1--1--1--1--1--1--1--1--|--3----3--3--3--3--3--3--|

---------------------------||-------------------------|
---------------------------||-------------------------|
--------------------------*||-------------------------|
--------------------------*||--2----2-----------------|
---------------------------||--0----0--0--0--0--0--0--|
--3--3--3--3--3--3--3--3---||-------------------------|

--------------------------|-------------------------|--------------------------|
--------------------------|-------------------------|--------------------------|
--------------------------|-------------------------|--------------------------|
--------------------------|--5----5-----------------|--------------------------|
--0--0--0--0--0--0--0--0--|--3----3--3--3--3--3--3--|--3--3--3--3--3--3--3--3--|
--------------------------|-------------------------|--------------------------|

-------------------------|--------------------------|-------------------------|
-------------------------|--------------------------|-------------------------|
-------------------------|--------------------------|-------------------------|
-------------------------|--------------------------|-------------------------|
--3----3-----------------|--------------------------|--5----5-----------------|
--1----1--1--1--1--1--1--|--1--1--1--1--1--1--1--1--|--3----3--3--3--3--3--3--|

--------------------------|-------------------------|--------------------------|
--------------------------|-------------------------|--------------------------|
--------------------------|-------------------------|--------------------------|
--------------------------|--2----2-----------------|--------------------------|
--------------------------|--0----0--0--0--0--0--0--|--0--0--0--0--0--0--0--0--|
--3--3--3--3--3--3--3--3--|-------------------------|--------------------------|

-------------------------|--------------------------|-------------------------|
-------------------------|--------------------------|-------------------------|
-------------------------|--------------------------|-------------------------|
--5----5-----------------|--------------------------|-------------------------|
--3----3--3--3--3--3--3--|--3--3--3--3--3--3--3--3--|--3----3-----------------|
-------------------------|--------------------------|--1----1--1--1--1--1--1--|

--------------------------|-------------------------|--------------------------|
--------------------------|-------------------------|--------------------------|
--------------------------|-------------------------|--------------------------|
--------------------------|-------------------------|--------------------------|
--------------------------|--5----5-----------------|--------------------------|
--1--1--1--1--1--1--1--1--|--3----3--3--3--3--3--3--|--3--3--3--3--3--3--3--3--|

|-------------------------|-----------------------|------------------------|
|-------------------------|-----------------------|------------------------|
|*------------------------|-----------------------|------------------------|
|*------------------------|-----------------------|------------------------|
|------------2------------|-----2------------1----|-----------2------------|
|---0--0--0--0------0--0--|--0--0------0--0--0----|--0--0--0--0------0--0--|

------------------------||-------------------------------|
------------------------||-------------------------------|
-----------------------*||*------------------------------|
-----------------------*||*-----------9--------7----7----|
-----2------------3-----||---7--7--7--7--7--7--5----5----|
--0--0------0--0--0-----||-------------------------------|
3x
-------------------------------||-------------------|------------------|
-------------------------------||-------------------|------------------|
------------------------------*||-------------------|------------------|
-----------4--------5----5----*||-------------------|------------------|
--2--2--2--2--2--2--3----3-----||--2----------------|------------------|
-------------------------------||--0----------------|------------------|

------------------|------------------|-------------------|------------------|
------------------|------------------|-------------------|------------------|
------------------|------------------|-------------------|------------------|
------------------|------------------|-------------------|------------------|
------------------|------------------|--2----------------|------------------|
------------------|------------------|--0----------------|------------------|

------------------|------------------|------------------||
------------------|------------------|------------------||
------------------|------------------|------------------||
------------------|------------------|------------------||
------------------|------------------|------------------||
------------------|------------------|------------------||

Link to comment
Share on other sites

Chasing Ghosts - Guitar 3 (Harmony)


Guitar 3 (Harmony)
--------||----------------------------|----------------------|
-13-15--||--17----15--13------13------|--------------13--15--|
--------||----------------16----------|----------------------|
--------||----------------------------|----------------------|
--------||----------------------------|----------------------|
--------||----------------------------|----------------------|

----------------------------|------------------------|
--17----15--13--15----------|------------------------|
--------------------16------|------------16--14--12--|
----------------------------|------------------------|
----------------------------|------------------------|
----------------------------|------------------------|

----------------------------|----------------15----|--------------------|
--------17--17--17--17------|------------17--------|--15--HOLD----------|
--14------------------------|----------------------|--------------------|
----------------------------|----------------------|--------------------|
----------------------------|----------------------|--------------------|
----------------------------|----------------------|--------------------|

----------------------|----------------------------|----------------------|
--------------13--15--|--17----15--13------13------|--------------13--15--|
----------------------|----------------16----------|----------------------|
----------------------|----------------------------|----------------------|
----------------------|----------------------------|----------------------|
----------------------|----------------------------|----------------------|

----------------------------|------------------------|
--17----15--13--15----------|------------------------|
--------------------16------|------------16--14--12--|
----------------------------|------------------------|
----------------------------|------------------------|
----------------------------|------------------------|

----------------------------|----------------15----|--------------------|
--------17--17--17--17------|------------17--------|--15--HOLD----------|
--14------------------------|----------------------|--------------------|
----------------------------|----------------------|--------------------|
----------------------------|----------------------|--------------------|
----------------------------|----------------------|--------------------|

Link to comment
Share on other sites

Guest Scorge Spike

Doc, you're not seriously telling me that the only reason you're tabbing Atom until all hours is because you've already completely rehearsed ALL the Dragonforce and ALL the Blind Guardian stuff for rehearsal on Sunday? ;)

The man's a genius!

</sarcasm>

Link to comment
Share on other sites

Doc' date=' you're not seriously telling me that the only reason you're tabbing Atom until all hours is because you've already completely rehearsed ALL the Dragonforce and ALL the Blind Guardian stuff for rehearsal on Sunday? ;)

The man's a genius!

</sarcasm>[/quote']

Oooo! What Blind Guardian stuff are you rehearsing?

Link to comment
Share on other sites

Doc' date=' you're not seriously telling me that the only reason you're tabbing Atom until all hours is because you've already completely rehearsed ALL the Dragonforce and ALL the Blind Guardian stuff for rehearsal on Sunday? ;)

The man's a genius!

</sarcasm>[/quote']

I would hardly call 8pm at night all hours !!!! i already knew how to play them so just spend 30mins or so tabbing them up!!

There's NO WAY that YOU know all the bleedin songs i tell thee!

Link to comment
Share on other sites

Join the conversation

You can post now and register later. If you have an account, sign in now to post with your account.

Guest
Reply to this topic...

×   Pasted as rich text.   Paste as plain text instead

  Only 75 emoji are allowed.

×   Your link has been automatically embedded.   Display as a link instead

×   Your previous content has been restored.   Clear editor

×   You cannot paste images directly. Upload or insert images from URL.

 Share

×
×
  • Create New...